  0
SECTION
  2
HEADER
  9
$ACADVER
  1
AC1015
  9
$ACADMAINTVER
 70
     6
  9
$DWGCODEPAGE
  3
ANSI_1254
  9
$INSBASE
 10
0.0
 20
0.0
 30
0.0
  9
$EXTMIN
 10
0.0
 20
0.0
 30
0.0
  9
$EXTMAX
 10
279.4
 20
215.9
 30
0.0
  9
$LIMMIN
 10
0.0
 20
0.0
  9
$LIMMAX
 10
279.4
 20
215.9
  9
$ORTHOMODE
 70
     0
  9
$REGENMODE
 70
     1
  9
$FILLMODE
 70
     1
  9
$QTEXTMODE
 70
     0
  9
$MIRRTEXT
 70
     1
  9
$LTSCALE
 40
1.0
  9
$ATTMODE
 70
     1
  9
$TEXTSIZE
 40
3.5
  9
$TRACEWID
 40
1.0
  9
$TEXTSTYLE
  7
Standard
  9
$CLAYER
  8
0
  9
$CELTYPE
  6
ByLayer
  9
$CECOLOR
 62
   256
  9
$CELTSCALE
 40
1.0
  9
$DISPSILH
 70
     0
  9
$DIMSCALE
 40
1.0
  9
$DIMASZ
 40
3.5
  9
$DIMEXO
 40
1.0
  9
$DIMDLI
 40
3.75
  9
$DIMRND
 40
0.0
  9
$DIMDLE
 40
0.0
  9
$DIMEXE
 40
1.0
  9
$DIMTP
 40
0.0
  9
$DIMTM
 40
0.0
  9
$DIMTXT
 40
3.5
  9
$DIMCEN
 40
2.5
  9
$DIMTSZ
 40
0.0
  9
$DIMTOL
 70
     0
  9
$DIMLIM
 70
     0
  9
$DIMTIH
 70
     1
  9
$DIMTOH
 70
     1
  9
$DIMSE1
 70
     0
  9
$DIMSE2
 70
     0
  9
$DIMTAD
 70
     1
  9
$DIMZIN
 70
     0
  9
$DIMBLK
  1

  9
$DIMASO
 70
     1
  9
$DIMSHO
 70
     1
  9
$DIMPOST
  1

  9
$DIMAPOST
  1

  9
$DIMALT
 70
     0
  9
$DIMALTD
 70
     3
  9
$DIMALTF
 40
0.0393700787
  9
$DIMLFAC
 40
1.0
  9
$DIMTOFL
 70
     1
  9
$DIMTVP
 40
0.0
  9
$DIMTIX
 70
     0
  9
$DIMSOXD
 70
     0
  9
$DIMSAH
 70
     0
  9
$DIMBLK1
  1

  9
$DIMBLK2
  1

  9
$DIMSTYLE
  2
ISO-25
  9
$DIMCLRD
 70
     0
  9
$DIMCLRE
 70
     0
  9
$DIMCLRT
 70
     0
  9
$DIMTFAC
 40
1.0
  9
$DIMGAP
 40
1.524
  9
$DIMJUST
 70
     0
  9
$DIMSD1
 70
     0
  9
$DIMSD2
 70
     0
  9
$DIMTOLJ
 70
     0
  9
$DIMTZIN
 70
     0
  9
$DIMALTZ
 70
     0
  9
$DIMALTTZ
 70
     0
  9
$DIMUPT
 70
     0
  9
$DIMDEC
 70
     2
  9
$DIMTDEC
 70
     2
  9
$DIMALTU
 70
     2
  9
$DIMALTTD
 70
     3
  9
$DIMTXSTY
  7
Standard
  9
$DIMAUNIT
 70
     0
  9
$DIMADEC
 70
     2
  9
$DIMALTRND
 40
0.0
  9
$DIMAZIN
 70
     0
  9
$DIMDSEP
 70
    44
  9
$DIMATFIT
 70
     3
  9
$DIMFRAC
 70
     0
  9
$DIMLDRBLK
  1

  9
$DIMLUNIT
 70
     2
  9
$DIMLWD
 70
    -2
  9
$DIMLWE
 70
    -2
  9
$DIMTMOVE
 70
     0
  9
$LUNITS
 70
     2
  9
$LUPREC
 70
     2
  9
$SKETCHINC
 40
1.0
  9
$FILLETRAD
 40
10.0
  9
$AUNITS
 70
     0
  9
$AUPREC
 70
     2
  9
$MENU
  1
.
  9
$ELEVATION
 40
0.0
  9
$PELEVATION
 40
0.0
  9
$THICKNESS
 40
0.0
  9
$LIMCHECK
 70
     0
  9
$CHAMFERA
 40
0.0
  9
$CHAMFERB
 40
0.0
  9
$CHAMFERC
 40
0.0
  9
$CHAMFERD
 40
0.0
  9
$SKPOLY
 70
     0
  9
$TDCREATE
 40
2459935.699338692
  9
$TDUCREATE
 40
2459935.574338692
  9
$TDUPDATE
 40
2459935.699338877
  9
$TDUUPDATE
 40
2459935.574338877
  9
$TDINDWG
 40
0.0000000116
  9
$TDUSRTIMER
 40
0.0000000116
  9
$USRTIMER
 70
     1
  9
$ANGBASE
 50
0.0
  9
$ANGDIR
 70
     0
  9
$PDMODE
 70
     0
  9
$PDSIZE
 40
-1.0
  9
$PLINEWID
 40
0.0
  9
$SPLFRAME
 70
     0
  9
$SPLINETYPE
 70
     6
  9
$SPLINESEGS
 70
     8
  9
$HANDSEED
  5
ED
  9
$SURFTAB1
 70
     6
  9
$SURFTAB2
 70
     6
  9
$SURFTYPE
 70
     6
  9
$SURFU
 70
     6
  9
$SURFV
 70
     6
  9
$UCSBASE
  2

  9
$UCSNAME
  2

  9
$UCSORG
 10
0.0
 20
0.0
 30
0.0
  9
$UCSXDIR
 10
1.0
 20
0.0
 30
0.0
  9
$UCSYDIR
 10
0.0
 20
1.0
 30
0.0
  9
$UCSORTHOREF
  2

  9
$UCSORTHOVIEW
 70
     0
  9
$UCSORGTOP
 10
0.0
 20
0.0
 30
0.0
  9
$UCSORGBOTTOM
 10
0.0
 20
0.0
 30
0.0
  9
$UCSORGLEFT
 10
0.0
 20
0.0
 30
0.0
  9
$UCSORGRIGHT
 10
0.0
 20
0.0
 30
0.0
  9
$UCSORGFRONT
 10
0.0
 20
0.0
 30
0.0
  9
$UCSORGBACK
 10
0.0
 20
0.0
 30
0.0
  9
$PUCSBASE
  2

  9
$PUCSNAME
  2

  9
$PUCSORG
 10
0.0
 20
0.0
 30
0.0
  9
$PUCSXDIR
 10
1.0
 20
0.0
 30
0.0
  9
$PUCSYDIR
 10
0.0
 20
1.0
 30
0.0
  9
$PUCSORTHOREF
  2

  9
$PUCSORTHOVIEW
 70
     0
  9
$PUCSORGTOP
 10
0.0
 20
0.0
 30
0.0
  9
$PUCSORGBOTTOM
 10
0.0
 20
0.0
 30
0.0
  9
$PUCSORGLEFT
 10
0.0
 20
0.0
 30
0.0
  9
$PUCSORGRIGHT
 10
0.0
 20
0.0
 30
0.0
  9
$PUCSORGFRONT
 10
0.0
 20
0.0
 30
0.0
  9
$PUCSORGBACK
 10
0.0
 20
0.0
 30
0.0
  9
$USERI1
 70
     0
  9
$USERI2
 70
     0
  9
$USERI3
 70
     0
  9
$USERI4
 70
     0
  9
$USERI5
 70
     0
  9
$USERR1
 40
0.0
  9
$USERR2
 40
0.0
  9
$USERR3
 40
0.0
  9
$USERR4
 40
0.0
  9
$USERR5
 40
0.0
  9
$WORLDVIEW
 70
     1
  9
$SHADEDGE
 70
     3
  9
$SHADEDIF
 70
    70
  9
$TILEMODE
 70
     1
  9
$MAXACTVP
 70
    64
  9
$PINSBASE
 10
0.0
 20
0.0
 30
0.0
  9
$PLIMCHECK
 70
     0
  9
$PEXTMIN
 10
1.0000000000E+20
 20
1.0000000000E+20
 30
1.0000000000E+20
  9
$PEXTMAX
 10
-1.0000000000E+20
 20
-1.0000000000E+20
 30
-1.0000000000E+20
  9
$PLIMMIN
 10
0.0
 20
0.0
  9
$PLIMMAX
 10
420.0
 20
297.0
  9
$UNITMODE
 70
     0
  9
$VISRETAIN
 70
     1
  9
$PLINEGEN
 70
     0
  9
$PSLTSCALE
 70
     1
  9
$TREEDEPTH
 70
  3020
  9
$CMLSTYLE
  2
Standard
  9
$CMLJUST
 70
     0
  9
$CMLSCALE
 40
20.0
  9
$PROXYGRAPHICS
 70
     1
  9
$MEASUREMENT
 70
     1
  9
$CELWEIGHT
370
    -1
  9
$ENDCAPS
280
     0
  9
$JOINSTYLE
280
     0
  9
$LWDISPLAY
290
     1
  9
$INSUNITS
 70
     4
  9
$HYPERLINKBASE
  1

  9
$STYLESHEET
  1

  9
$XEDIT
290
     1
  9
$CEPSNTYPE
380
     0
  9
$PSTYLEMODE
290
     1
  9
$FINGERPRINTGUID
  2
{cde25302-5988-4420-9db9-7d39898531ad}
  9
$VERSIONGUID
  2
{FAEB1C32-E019-11D5-929B-00C0DF256EC4}
  9
$EXTNAMES
290
     1
  9
$PSVPSCALE
 40
0.0
  9
$OLESTARTUP
290
     0
  0
ENDSEC
  0
SECTION
  2
CLASSES
  0
CLASS
  1
ACDBDICTIONARYWDFLT
  2
AcDbDictionaryWithDefault
  3
ObjectDBX Classes
 90
        0
280
     0
281
     0
  0
CLASS
  1
VISUALSTYLE
  2
AcDbVisualStyle
  3
ObjectDBX Classes
 90
     4095
280
     0
281
     0
  0
CLASS
  1
MATERIAL
  2
AcDbMaterial
  3
ObjectDBX Classes
 90
     1153
280
     0
281
     0
  0
CLASS
  1
SCALE
  2
AcDbScale
  3
ObjectDBX Classes
 90
     1153
280
     0
281
     0
  0
CLASS
  1
TABLESTYLE
  2
AcDbTableStyle
  3
ObjectDBX Classes
 90
     4095
280
     0
281
     0
  0
CLASS
  1
MLEADERSTYLE
  2
AcDbMLeaderStyle
  3
ACDB_MLEADERSTYLE_CLASS
 90
     4095
280
     0
281
     0
  0
CLASS
  1
SUN
  2
AcDbSun
  3
SCENEOE
 90
     1153
280
     0
281
     0
  0
CLASS
  1
ACDBPLACEHOLDER
  2
AcDbPlaceHolder
  3
ObjectDBX Classes
 90
        0
280
     0
281
     0
  0
CLASS
  1
LAYOUT
  2
AcDbLayout
  3
ObjectDBX Classes
 90
        0
280
     0
281
     0
  0
ENDSEC
  0
SECTION
  2
TABLES
  0
TABLE
  2
VPORT
  5
8
330
0
100
AcDbSymbolTable
 70
     1
  0
VPORT
  5
29
330
8
100
AcDbSymbolTableRecord
100
AcDbViewportTableRecord
  2
*Active
 70
     0
 10
0.0
 20
0.0
 11
1.0
 21
1.0
 12
139.7
 22
107.95
 13
0.0
 23
0.0
 14
10.0
 24
10.0
 15
10.0
 25
10.0
 16
0.0
 26
0.0
 36
1.0
 17
0.0
 27
0.0
 37
0.0
 40
215.9
 41
1.2941176471
 42
50.0
 43
0.0
 44
0.0
 50
0.0
 51
0.0
 71
     0
 72
  2000
 73
     1
 74
     3
 75
     0
 76
     0
 77
     0
 78
     0
281
     0
 65
     1
110
0.0
120
0.0
130
0.0
111
1.0
121
0.0
131
0.0
112
0.0
122
1.0
132
0.0
 79
     0
146
0.0
  0
ENDTAB
  0
TABLE
  2
LTYPE
  5
5
330
0
100
AcDbSymbolTable
 70
     6
  0
LTYPE
  5
14
330
5
100
AcDbSymbolTableRecord
100
AcDbLinetypeTableRecord
  2
ByBlock
 70
     0
  3

 72
    65
 73
     0
 40
0.0
  0
LTYPE
  5
15
330
5
100
AcDbSymbolTableRecord
100
AcDbLinetypeTableRecord
  2
ByLayer
 70
     0
  3

 72
    65
 73
     0
 40
0.0
  0
LTYPE
  5
16
330
5
100
AcDbSymbolTableRecord
100
AcDbLinetypeTableRecord
  2
Continuous
 70
     0
  3
Solid line
 72
    65
 73
     0
 40
0.0
  0
LTYPE
  5
6E
330
5
100
AcDbSymbolTableRecord
100
AcDbLinetypeTableRecord
  2
HIDDEN
 70
     0
  3
Hidden __ __ __ __ __ __ __ __ __ __ __ __ __ __
 72
    65
 73
     2
 40
1.905
 49
1.27
 74
     0
 49
-0.635
 74
     0
  0
LTYPE
  5
6F
330
5
100
AcDbSymbolTableRecord
100
AcDbLinetypeTableRecord
  2
PHANTOM
 70
     0
  3
Phantom ______  __  __  ______  __  __  ______
 72
    65
 73
     6
 40
12.7
 49
6.35
 74
     0
 49
-1.27
 74
     0
 49
1.27
 74
     0
 49
-1.27
 74
     0
 49
1.27
 74
     0
 49
-1.27
 74
     0
  0
LTYPE
  5
70
330
5
100
AcDbSymbolTableRecord
100
AcDbLinetypeTableRecord
  2
CENTER
 70
     0
  3
Center ____ _ ____ _ ____ _ ____ _ ____ _ ____
 72
    65
 73
     4
 40
10.16
 49
6.35
 74
     0
 49
-1.27
 74
     0
 49
1.27
 74
     0
 49
-1.27
 74
     0
  0
LTYPE
  5
71
330
5
100
AcDbSymbolTableRecord
100
AcDbLinetypeTableRecord
  2
CENTERX2
 70
     0
  3
Center (2x) ________  __  ________  __  _____
 72
    65
 73
     4
 40
20.32
 49
12.7
 74
     0
 49
-2.54
 74
     0
 49
2.54
 74
     0
 49
-2.54
 74
     0
  0
LTYPE
  5
72
330
5
100
AcDbSymbolTableRecord
100
AcDbLinetypeTableRecord
  2
DOT2
 70
     0
  3
Dot (.5x) ........................................
 72
    65
 73
     2
 40
0.635
 49
0.0
 74
     0
 49
-0.635
 74
     0
  0
ENDTAB
  0
TABLE
  2
LAYER
  5
2
330
0
100
AcDbSymbolTable
 70
    17
  0
LAYER
  5
10
330
2
100
AcDbSymbolTableRecord
100
AcDbLayerTableRecord
  2
0
 70
     0
 62
     7
  6
Continuous
370
    -3
390
F
  0
LAYER
  5
73
330
2
100
AcDbSymbolTableRecord
100
AcDbLayerTableRecord
  2
FORMAT
 70
     0
 62
     7
  6
Continuous
370
    -3
390
F
  0
LAYER
  5
74
330
2
100
AcDbSymbolTableRecord
100
AcDbLayerTableRecord
  2
YARDIMCI_GEOMETRI
 70
     0
 62
    -6
  6
Continuous
290
     0
370
    -3
390
F
  0
LAYER
  5
75
330
2
100
AcDbSymbolTableRecord
100
AcDbLayerTableRecord
  2
SAYFA_CERCEVESI
 70
     0
 62
     7
  6
Continuous
370
    25
390
F
  0
LAYER
  5
76
330
2
100
AcDbSymbolTableRecord
100
AcDbLayerTableRecord
  2
ANTET
 70
     0
 62
     7
  6
Continuous
370
    -3
390
F
  0
LAYER
  5
77
330
2
100
AcDbSymbolTableRecord
100
AcDbLayerTableRecord
  2
OLCU
 70
     0
 62
   150
  6
Continuous
370
    -3
390
F
  0
LAYER
  5
78
330
2
100
AcDbSymbolTableRecord
100
AcDbLayerTableRecord
  2
METIN
 70
     0
 62
    96
  6
Continuous
370
    -3
390
F
  0
LAYER
  5
79
330
2
100
AcDbSymbolTableRecord
100
AcDbLayerTableRecord
  2
BALON
 70
     0
 62
     5
  6
Continuous
370
    -3
390
F
  0
LAYER
  5
7A
330
2
100
AcDbSymbolTableRecord
100
AcDbLayerTableRecord
  2
VURGU
 70
     0
 62
     7
  6
Continuous
370
    -3
390
F
  0
LAYER
  5
7B
330
2
100
AcDbSymbolTableRecord
100
AcDbLayerTableRecord
  2
SILIK
 70
     0
 62
     7
  6
Continuous
370
    -3
390
F
  0
LAYER
  5
7C
330
2
100
AcDbSymbolTableRecord
100
AcDbLayerTableRecord
  2
MODEL
 70
     0
 62
     7
  6
Continuous
370
    -3
390
F
  0
LAYER
  5
7D
330
2
100
AcDbSymbolTableRecord
100
AcDbLayerTableRecord
  2
DETAYLANDıRMA
 70
     0
 62
   190
  6
Continuous
370
    -3
390
F
  0
LAYER
  5
7E
330
2
100
AcDbSymbolTableRecord
100
AcDbLayerTableRecord
  2
TOLERANS
 70
     0
 62
   230
  6
Continuous
370
    -3
390
F
  0
LAYER
  5
7F
330
2
100
AcDbSymbolTableRecord
100
AcDbLayerTableRecord
  2
MERKEZ_CIZGILERI
 70
     0
 62
    30
  6
Continuous
370
    -3
390
F
  0
LAYER
  5
80
330
2
100
AcDbSymbolTableRecord
100
AcDbLayerTableRecord
  2
KESIT-DETAY_CIZGILERI
 70
     0
 62
     7
  6
Continuous
370
    -3
390
F
  0
LAYER
  5
81
330
2
100
AcDbSymbolTableRecord
100
AcDbLayerTableRecord
  2
\U+041E\U+0421\U+0415\U+0412\U+042B\U+0415
 70
     0
 62
     7
  6
Continuous
370
    -3
390
F
  0
LAYER
  5
82
330
2
100
AcDbSymbolTableRecord
100
AcDbLayerTableRecord
  2
\U+0412\U+041E\U+0414\U+042F\U+041D\U+042B\U+0415_\U+0417\U+041D\U+0410\U+041A\U+0418
 70
     0
 62
    11
  6
Continuous
370
    -3
390
F
  0
ENDTAB
  0
TABLE
  2
STYLE
  5
3
330
0
100
AcDbSymbolTable
 70
     1
  0
STYLE
  5
11
330
3
100
AcDbSymbolTableRecord
100
AcDbTextStyleTableRecord
  2
Standard
 70
     0
 40
0.0
 41
1.0
 50
0.0
 71
     0
 42
3.5
  3
txt
  4

  0
ENDTAB
  0
TABLE
  2
VIEW
  5
6
330
0
100
AcDbSymbolTable
 70
     0
  0
ENDTAB
  0
TABLE
  2
UCS
  5
7
330
0
100
AcDbSymbolTable
 70
     0
  0
ENDTAB
  0
TABLE
  2
APPID
  5
9
330
0
100
AcDbSymbolTable
 70
     1
  0
APPID
  5
12
330
9
100
AcDbSymbolTableRecord
100
AcDbRegAppTableRecord
  2
ACAD
 70
     0
  0
ENDTAB
  0
TABLE
  2
DIMSTYLE
  5
A
330
0
100
AcDbSymbolTable
 70
     1
100
AcDbDimStyleTable
  0
DIMSTYLE
105
27
330
A
100
AcDbSymbolTableRecord
100
AcDbDimStyleTableRecord
  2
ISO-25
 70
     0
 41
2.5
 42
0.625
 43
3.75
 44
1.25
 73
     0
 74
     0
 77
     1
 78
     8
140
2.5
141
2.5
143
0.0393700787
147
0.625
171
     3
172
     1
178
     0
271
     2
272
     2
274
     3
278
    44
283
     0
284
     8
340
11
  0
ENDTAB
  0
TABLE
  2
BLOCK_RECORD
  5
1
330
0
100
AcDbSymbolTable
 70
     5
  0
BLOCK_RECORD
  5
1F
330
1
100
AcDbSymbolTableRecord
100
AcDbBlockTableRecord
  2
*Model_Space
340
22
  0
BLOCK_RECORD
  5
1B
330
1
100
AcDbSymbolTableRecord
100
AcDbBlockTableRecord
  2
*Paper_Space
340
1E
  0
BLOCK_RECORD
  5
23
330
1
100
AcDbSymbolTableRecord
100
AcDbBlockTableRecord
  2
*Paper_Space0
340
26
  0
BLOCK_RECORD
  5
97
330
1
100
AcDbSymbolTableRecord
100
AcDbBlockTableRecord
  2
SW_CENTERMARKSYMBOL_0
340
0
102
{BLKREFS
331
A2
102
}
  0
BLOCK_RECORD
  5
AC
330
1
100
AcDbSymbolTableRecord
100
AcDbBlockTableRecord
  2
SW_CENTERMARKSYMBOL_1
340
0
102
{BLKREFS
331
B7
102
}
  0
BLOCK_RECORD
  5
BF
330
1
100
AcDbSymbolTableRecord
100
AcDbBlockTableRecord
  2
SW_CENTERMARKSYMBOL_2
340
0
102
{BLKREFS
331
CA
102
}
  0
BLOCK_RECORD
  5
D2
330
1
100
AcDbSymbolTableRecord
100
AcDbBlockTableRecord
  2
SW_CENTERMARKSYMBOL_3
340
0
102
{BLKREFS
331
DD
102
}
  0
ENDTAB
  0
ENDSEC
  0
SECTION
  2
BLOCKS
  0
BLOCK
  5
20
330
1F
100
AcDbEntity
  8
0
100
AcDbBlockBegin
  2
*Model_Space
 70
     0
 10
0.0
 20
0.0
 30
0.0
  3
*Model_Space
  1

  0
ENDBLK
  5
21
330
1F
100
AcDbEntity
  8
0
100
AcDbBlockEnd
  0
BLOCK
  5
1C
330
1B
100
AcDbEntity
 67
     1
  8
0
100
AcDbBlockBegin
  2
*Paper_Space
 70
     0
 10
0.0
 20
0.0
 30
0.0
  3
*Paper_Space
  1

  0
ENDBLK
  5
1D
330
1B
100
AcDbEntity
 67
     1
  8
0
100
AcDbBlockEnd
  0
BLOCK
  5
24
330
23
100
AcDbEntity
  8
0
100
AcDbBlockBegin
  2
*Paper_Space0
 70
     0
 10
0.0
 20
0.0
 30
0.0
  3
*Paper_Space0
  1

  0
ENDBLK
  5
25
330
23
100
AcDbEntity
  8
0
100
AcDbBlockEnd
  0
BLOCK
  5
98
330
97
100
AcDbEntity
  8
0
100
AcDbBlockBegin
  2
SW_CENTERMARKSYMBOL_0
 70
     0
 10
0.0
 20
0.0
 30
0.0
  3
SW_CENTERMARKSYMBOL_0
  1

  0
LINE
  5
9A
330
97
100
AcDbEntity
  8
FORMAT
 62
     0
100
AcDbLine
 10
0.0
 20
0.0
 30
0.0
 11
0.0
 21
2.5
 31
0.0
  0
LINE
  5
9B
330
97
100
AcDbEntity
  8
FORMAT
 62
     0
100
AcDbLine
 10
0.0
 20
0.0
 30
0.0
 11
-2.5
 21
0.0
 31
0.0
  0
LINE
  5
9C
330
97
100
AcDbEntity
  8
FORMAT
 62
     0
100
AcDbLine
 10
0.0
 20
0.0
 30
0.0
 11
0.0
 21
-2.5
 31
0.0
  0
LINE
  5
9D
330
97
100
AcDbEntity
  8
FORMAT
 62
     0
100
AcDbLine
 10
0.0
 20
0.0
 30
0.0
 11
2.5
 21
0.0
 31
0.0
  0
LINE
  5
9E
330
97
100
AcDbEntity
  8
FORMAT
 62
     0
100
AcDbLine
 10
0.0
 20
5.0
 30
0.0
 11
0.0
 21
47.5
 31
0.0
  0
LINE
  5
9F
330
97
100
AcDbEntity
  8
FORMAT
 62
     0
100
AcDbLine
 10
-5.0
 20
0.0
 30
0.0
 11
-47.5
 21
0.0
 31
0.0
  0
LINE
  5
A0
330
97
100
AcDbEntity
  8
FORMAT
 62
     0
100
AcDbLine
 10
0.0
 20
-5.0
 30
0.0
 11
0.0
 21
-47.5
 31
0.0
  0
LINE
  5
A1
330
97
100
AcDbEntity
  8
FORMAT
 62
     0
100
AcDbLine
 10
5.0
 20
0.0
 30
0.0
 11
47.5
 21
0.0
 31
0.0
  0
ENDBLK
  5
99
330
97
100
AcDbEntity
  8
0
100
AcDbBlockEnd
  0
BLOCK
  5
AD
330
AC
100
AcDbEntity
  8
0
100
AcDbBlockBegin
  2
SW_CENTERMARKSYMBOL_1
 70
     0
 10
0.0
 20
0.0
 30
0.0
  3
SW_CENTERMARKSYMBOL_1
  1

  0
LINE
  5
AF
330
AC
100
AcDbEntity
  8
FORMAT
 62
     0
100
AcDbLine
 10
0.0
 20
0.0
 30
0.0
 11
0.0
 21
2.5
 31
0.0
  0
LINE
  5
B0
330
AC
100
AcDbEntity
  8
FORMAT
 62
     0
100
AcDbLine
 10
0.0
 20
0.0
 30
0.0
 11
-2.5
 21
0.0
 31
0.0
  0
LINE
  5
B1
330
AC
100
AcDbEntity
  8
FORMAT
 62
     0
100
AcDbLine
 10
0.0
 20
0.0
 30
0.0
 11
0.0
 21
-2.5
 31
0.0
  0
LINE
  5
B2
330
AC
100
AcDbEntity
  8
FORMAT
 62
     0
100
AcDbLine
 10
0.0
 20
0.0
 30
0.0
 11
2.5
 21
0.0
 31
0.0
  0
LINE
  5
B3
330
AC
100
AcDbEntity
  8
FORMAT
 62
     0
100
AcDbLine
 10
0.0
 20
5.0
 30
0.0
 11
0.0
 21
47.5
 31
0.0
  0
LINE
  5
B4
330
AC
100
AcDbEntity
  8
FORMAT
 62
     0
100
AcDbLine
 10
-5.0
 20
0.0
 30
0.0
 11
-47.5
 21
0.0
 31
0.0
  0
LINE
  5
B5
330
AC
100
AcDbEntity
  8
FORMAT
 62
     0
100
AcDbLine
 10
0.0
 20
-5.0
 30
0.0
 11
0.0
 21
-47.5
 31
0.0
  0
LINE
  5
B6
330
AC
100
AcDbEntity
  8
FORMAT
 62
     0
100
AcDbLine
 10
5.0
 20
0.0
 30
0.0
 11
47.5
 21
0.0
 31
0.0
  0
ENDBLK
  5
AE
330
AC
100
AcDbEntity
  8
0
100
AcDbBlockEnd
  0
BLOCK
  5
C0
330
BF
100
AcDbEntity
  8
0
100
AcDbBlockBegin
  2
SW_CENTERMARKSYMBOL_2
 70
     0
 10
0.0
 20
0.0
 30
0.0
  3
SW_CENTERMARKSYMBOL_2
  1

  0
LINE
  5
C2
330
BF
100
AcDbEntity
  8
FORMAT
 62
     0
100
AcDbLine
 10
0.0
 20
0.0
 30
0.0
 11
0.0
 21
2.5
 31
0.0
  0
LINE
  5
C3
330
BF
100
AcDbEntity
  8
FORMAT
 62
     0
100
AcDbLine
 10
0.0
 20
0.0
 30
0.0
 11
-2.5
 21
0.0
 31
0.0
  0
LINE
  5
C4
330
BF
100
AcDbEntity
  8
FORMAT
 62
     0
100
AcDbLine
 10
0.0
 20
0.0
 30
0.0
 11
0.0
 21
-2.5
 31
0.0
  0
LINE
  5
C5
330
BF
100
AcDbEntity
  8
FORMAT
 62
     0
100
AcDbLine
 10
0.0
 20
0.0
 30
0.0
 11
2.5
 21
0.0
 31
0.0
  0
LINE
  5
C6
330
BF
100
AcDbEntity
  8
FORMAT
 62
     0
100
AcDbLine
 10
0.0
 20
5.0
 30
0.0
 11
0.0
 21
47.5
 31
0.0
  0
LINE
  5
C7
330
BF
100
AcDbEntity
  8
FORMAT
 62
     0
100
AcDbLine
 10
-5.0
 20
0.0
 30
0.0
 11
-47.5
 21
0.0
 31
0.0
  0
LINE
  5
C8
330
BF
100
AcDbEntity
  8
FORMAT
 62
     0
100
AcDbLine
 10
0.0
 20
-5.0
 30
0.0
 11
0.0
 21
-47.5
 31
0.0
  0
LINE
  5
C9
330
BF
100
AcDbEntity
  8
FORMAT
 62
     0
100
AcDbLine
 10
5.0
 20
0.0
 30
0.0
 11
47.5
 21
0.0
 31
0.0
  0
ENDBLK
  5
C1
330
BF
100
AcDbEntity
  8
0
100
AcDbBlockEnd
  0
BLOCK
  5
D3
330
D2
100
AcDbEntity
  8
0
100
AcDbBlockBegin
  2
SW_CENTERMARKSYMBOL_3
 70
     0
 10
0.0
 20
0.0
 30
0.0
  3
SW_CENTERMARKSYMBOL_3
  1

  0
LINE
  5
D5
330
D2
100
AcDbEntity
  8
FORMAT
 62
     0
100
AcDbLine
 10
0.0
 20
0.0
 30
0.0
 11
0.0
 21
2.5
 31
0.0
  0
LINE
  5
D6
330
D2
100
AcDbEntity
  8
FORMAT
 62
     0
100
AcDbLine
 10
0.0
 20
0.0
 30
0.0
 11
-2.5
 21
0.0
 31
0.0
  0
LINE
  5
D7
330
D2
100
AcDbEntity
  8
FORMAT
 62
     0
100
AcDbLine
 10
0.0
 20
0.0
 30
0.0
 11
0.0
 21
-2.5
 31
0.0
  0
LINE
  5
D8
330
D2
100
AcDbEntity
  8
FORMAT
 62
     0
100
AcDbLine
 10
0.0
 20
0.0
 30
0.0
 11
2.5
 21
0.0
 31
0.0
  0
LINE
  5
D9
330
D2
100
AcDbEntity
  8
FORMAT
 62
     0
100
AcDbLine
 10
0.0
 20
5.0
 30
0.0
 11
0.0
 21
47.5
 31
0.0
  0
LINE
  5
DA
330
D2
100
AcDbEntity
  8
FORMAT
 62
     0
100
AcDbLine
 10
-5.0
 20
0.0
 30
0.0
 11
-47.5
 21
0.0
 31
0.0
  0
LINE
  5
DB
330
D2
100
AcDbEntity
  8
FORMAT
 62
     0
100
AcDbLine
 10
0.0
 20
-5.0
 30
0.0
 11
0.0
 21
-47.5
 31
0.0
  0
LINE
  5
DC
330
D2
100
AcDbEntity
  8
FORMAT
 62
     0
100
AcDbLine
 10
5.0
 20
0.0
 30
0.0
 11
47.5
 21
0.0
 31
0.0
  0
ENDBLK
  5
D4
330
D2
100
AcDbEntity
  8
0
100
AcDbBlockEnd
  0
ENDSEC
  0
SECTION
  2
ENTITIES
  0
LINE
  5
83
330
1F
100
AcDbEntity
  8
0
  6
Continuous
 62
     7
370
    25
100
AcDbLine
 10
49.0176255188
 20
110.7865475793
 30
0.0
 11
49.0176255188
 21
10.7865475793
 31
0.0
  0
LINE
  5
84
330
1F
100
AcDbEntity
  8
0
  6
Continuous
 62
     7
370
    25
100
AcDbLine
 10
139.0176255188
 20
10.7865475793
 30
0.0
 11
139.0176255188
 21
110.7865475793
 31
0.0
  0
ARC
  5
85
330
1F
100
AcDbEntity
  8
0
  6
Continuous
 62
     7
370
    25
100
AcDbCircle
 10
139.0176255188
 20
110.7865475793
 30
0.0
 40
90.00000000000001
100
AcDbArc
 50
90.0
 51
180.0
  0
LINE
  5
86
330
1F
100
AcDbEntity
  8
0
  6
Continuous
 62
     7
370
    25
100
AcDbLine
 10
239.0176255188
 20
200.7865475793
 30
0.0
 11
139.0176255188
 21
200.7865475793
 31
0.0
  0
LINE
  5
87
330
1F
100
AcDbEntity
  8
0
  6
Continuous
 62
     7
370
    25
100
AcDbLine
 10
139.0176255188
 20
110.7865475793
 30
0.0
 11
239.0176255188
 21
110.7865475793
 31
0.0
  0
LINE
  5
88
330
1F
100
AcDbEntity
  8
0
  6
Continuous
 62
     7
370
    25
100
AcDbLine
 10
94.0176255188
 20
10.7865475793
 30
0.0
 11
139.0176255188
 21
10.7865475793
 31
0.0
  0
LINE
  5
89
330
1F
100
AcDbEntity
  8
0
  6
Continuous
 62
     7
370
    25
100
AcDbLine
 10
49.0176255188
 20
10.7865475793
 30
0.0
 11
94.0176255188
 21
10.7865475793
 31
0.0
  0
LINE
  5
8A
330
1F
100
AcDbEntity
  8
0
  6
Continuous
 62
     7
370
    25
100
AcDbLine
 10
239.0176255188
 20
155.7865475793
 30
0.0
 11
239.0176255188
 21
110.7865475793
 31
0.0
  0
LINE
  5
8B
330
1F
100
AcDbEntity
  8
0
  6
Continuous
 62
     7
370
    25
100
AcDbLine
 10
239.0176255188
 20
200.7865475793
 30
0.0
 11
239.0176255188
 21
155.7865475793
 31
0.0
  0
LINE
  5
8C
330
1F
100
AcDbEntity
  8
0
  6
Continuous
 62
     1
370
    25
100
AcDbLine
 10
49.0176255188
 20
110.7865475793
 30
0.0
 11
139.0176255188
 21
110.7865475793
 31
0.0
  0
LINE
  5
8D
330
1F
100
AcDbEntity
  8
0
  6
Continuous
 62
     1
370
    25
100
AcDbLine
 10
139.0176255188
 20
200.7865475793
 30
0.0
 11
139.0176255188
 21
110.7865475793
 31
0.0
  0
LINE
  5
8E
330
1F
100
AcDbEntity
  8
0
  6
Continuous
 62
     7
370
    25
100
AcDbLine
 10
-136.3166614329
 20
110.7865475793
 30
0.0
 11
-136.3166614329
 21
10.7865475793
 31
0.0
  0
LINE
  5
8F
330
1F
100
AcDbEntity
  8
0
  6
Continuous
 62
     7
370
    25
100
AcDbLine
 10
-46.3166614329
 20
10.7865475793
 30
0.0
 11
-46.3166614329
 21
110.7865475793
 31
0.0
  0
LINE
  5
90
330
1F
100
AcDbEntity
  8
0
  6
Continuous
 62
     7
370
    25
100
AcDbLine
 10
-136.3166614329
 20
155.7865475793
 30
0.0
 11
-136.3166614329
 21
110.7865475793
 31
0.0
  0
LINE
  5
91
330
1F
100
AcDbEntity
  8
0
  6
Continuous
 62
     7
370
    25
100
AcDbLine
 10
-46.3166614329
 20
110.7865475793
 30
0.0
 11
-46.3166614329
 21
155.7865475793
 31
0.0
  0
CIRCLE
  5
92
330
1F
100
AcDbEntity
  8
0
  6
Continuous
 62
     7
370
    25
100
AcDbCircle
 10
-91.3166614329
 20
155.7865475793
 30
0.0
 40
45.00000000000001
  0
CIRCLE
  5
93
330
1F
100
AcDbEntity
  8
0
  6
Continuous
 62
     7
370
    25
100
AcDbCircle
 10
-91.3166614329
 20
155.7865475793
 30
0.0
 40
36.80000000000005
  0
LINE
  5
94
330
1F
100
AcDbEntity
  8
0
  6
Continuous
 62
     7
370
    25
100
AcDbLine
 10
-136.3166614329
 20
10.7865475793
 30
0.0
 11
-46.3166614329
 21
10.7865475793
 31
0.0
  0
LINE
  5
95
330
1F
100
AcDbEntity
  8
0
  6
Continuous
 62
     1
370
    25
100
AcDbLine
 10
-91.3166614329
 20
110.7865475793
 30
0.0
 11
-46.3166614329
 21
110.7865475793
 31
0.0
  0
LINE
  5
96
330
1F
100
AcDbEntity
  8
0
  6
Continuous
 62
     1
370
    25
100
AcDbLine
 10
-136.3166614329
 20
110.7865475793
 30
0.0
 11
-91.3166614329
 21
110.7865475793
 31
0.0
  0
INSERT
  5
A2
330
1F
100
AcDbEntity
  8
FORMAT
 62
     7
100
AcDbBlockReference
  2
SW_CENTERMARKSYMBOL_0
 10
-91.3166614329
 20
155.7865475793
 30
0.0
  0
LINE
  5
A3
330
1F
100
AcDbEntity
  8
0
  6
Continuous
 62
     7
370
    25
100
AcDbLine
 10
239.0176255188
 20
356.628836581
 30
0.0
 11
139.0176255188
 21
356.628836581
 31
0.0
  0
LINE
  5
A4
330
1F
100
AcDbEntity
  8
0
  6
Continuous
 62
     7
370
    25
100
AcDbLine
 10
139.0176255188
 20
266.628836581
 30
0.0
 11
239.0176255188
 21
266.628836581
 31
0.0
  0
LINE
  5
A5
330
1F
100
AcDbEntity
  8
0
  6
Continuous
 62
     7
370
    25
100
AcDbLine
 10
139.0176255188
 20
356.628836581
 30
0.0
 11
94.0176255188
 21
356.628836581
 31
0.0
  0
LINE
  5
A6
330
1F
100
AcDbEntity
  8
0
  6
Continuous
 62
     7
370
    25
100
AcDbLine
 10
94.0176255188
 20
266.628836581
 30
0.0
 11
139.0176255188
 21
266.628836581
 31
0.0
  0
CIRCLE
  5
A7
330
1F
100
AcDbEntity
  8
0
  6
Continuous
 62
     7
370
    25
100
AcDbCircle
 10
94.0176255188
 20
311.628836581
 30
0.0
 40
36.80000000000007
  0
CIRCLE
  5
A8
330
1F
100
AcDbEntity
  8
0
  6
Continuous
 62
     7
370
    25
100
AcDbCircle
 10
94.0176255188
 20
311.628836581
 30
0.0
 40
45.00000000000006
  0
LINE
  5
A9
330
1F
100
AcDbEntity
  8
0
  6
Continuous
 62
     7
370
    25
100
AcDbLine
 10
239.0176255188
 20
356.628836581
 30
0.0
 11
239.0176255188
 21
266.628836581
 31
0.0
  0
LINE
  5
AA
330
1F
100
AcDbEntity
  8
0
  6
Continuous
 62
     1
370
    25
100
AcDbLine
 10
139.0176255188
 20
311.628836581
 30
0.0
 11
139.0176255188
 21
266.628836581
 31
0.0
  0
LINE
  5
AB
330
1F
100
AcDbEntity
  8
0
  6
Continuous
 62
     1
370
    25
100
AcDbLine
 10
139.0176255188
 20
356.628836581
 30
0.0
 11
139.0176255188
 21
311.628836581
 31
0.0
  0
INSERT
  5
B7
330
1F
100
AcDbEntity
  8
FORMAT
 62
     7
100
AcDbBlockReference
  2
SW_CENTERMARKSYMBOL_1
 10
94.0176255188
 20
311.628836581
 30
0.0
  0
LINE
  5
B8
330
1F
100
AcDbEntity
  8
0
  6
Continuous
 62
     7
370
    25
100
AcDbLine
 10
342.1728049111
 20
110.7865475793
 30
0.0
 11
342.1728049111
 21
10.7865475793
 31
0.0
  0
LINE
  5
B9
330
1F
100
AcDbEntity
  8
0
  6
Continuous
 62
     7
370
    25
100
AcDbLine
 10
432.1728049111
 20
10.7865475793
 30
0.0
 11
432.1728049111
 21
110.7865475793
 31
0.0
  0
LINE
  5
BA
330
1F
100
AcDbEntity
  8
0
  6
Continuous
 62
     7
370
    25
100
AcDbLine
 10
432.1728049111
 20
110.7865475793
 30
0.0
 11
432.1728049111
 21
155.7865475793
 31
0.0
  0
LINE
  5
BB
330
1F
100
AcDbEntity
  8
0
  6
Continuous
 62
     7
370
    25
100
AcDbLine
 10
342.1728049111
 20
155.7865475793
 30
0.0
 11
342.1728049111
 21
110.7865475793
 31
0.0
  0
LINE
  5
BC
330
1F
100
AcDbEntity
  8
0
  6
Continuous
 62
     7
370
    25
100
AcDbLine
 10
342.1728049111
 20
10.7865475793
 30
0.0
 11
432.1728049111
 21
10.7865475793
 31
0.0
  0
ARC
  5
BD
330
1F
100
AcDbEntity
  8
0
  6
Continuous
 62
     7
370
    25
100
AcDbCircle
 10
387.1728049111
 20
155.7865475793
 30
0.0
 40
45.00000000000006
100
AcDbArc
 50
0.0
 51
180.0
  0
LINE
  5
BE
330
1F
100
AcDbEntity
  8
0
  6
Continuous
 62
     1
370
    25
100
AcDbLine
 10
342.1728049111
 20
110.7865475793
 30
0.0
 11
432.1728049111
 21
110.7865475793
 31
0.0
  0
INSERT
  5
CA
330
1F
100
AcDbEntity
  8
FORMAT
 62
     7
100
AcDbBlockReference
  2
SW_CENTERMARKSYMBOL_2
 10
387.1728049111
 20
155.7865475793
 30
0.0
  0
LINE
  5
CB
330
1F
100
AcDbEntity
  8
0
  6
Continuous
 62
     7
370
    25
100
AcDbLine
 10
94.0176255188
 20
-184.216373838
 30
0.0
 11
139.0176255188
 21
-184.216373838
 31
0.0
  0
LINE
  5
CC
330
1F
100
AcDbEntity
  8
0
  6
Continuous
 62
     7
370
    25
100
AcDbLine
 10
139.0176255188
 20
-94.216373838
 30
0.0
 11
94.0176255188
 21
-94.216373838
 31
0.0
  0
LINE
  5
CD
330
1F
100
AcDbEntity
  8
0
  6
Continuous
 62
     7
370
    25
100
AcDbLine
 10
239.0176255188
 20
-94.216373838
 30
0.0
 11
139.0176255188
 21
-94.216373838
 31
0.0
  0
LINE
  5
CE
330
1F
100
AcDbEntity
  8
0
  6
Continuous
 62
     7
370
    25
100
AcDbLine
 10
139.0176255188
 20
-184.216373838
 30
0.0
 11
239.0176255188
 21
-184.216373838
 31
0.0
  0
ARC
  5
CF
330
1F
100
AcDbEntity
  8
0
  6
Continuous
 62
     7
370
    25
100
AcDbCircle
 10
94.0176255188
 20
-139.216373838
 30
0.0
 40
45.00000000000003
100
AcDbArc
 50
90.0
 51
270.0
  0
LINE
  5
D0
330
1F
100
AcDbEntity
  8
0
  6
Continuous
 62
     7
370
    25
100
AcDbLine
 10
239.0176255188
 20
-94.216373838
 30
0.0
 11
239.0176255188
 21
-184.216373838
 31
0.0
  0
LINE
  5
D1
330
1F
100
AcDbEntity
  8
0
  6
Continuous
 62
     1
370
    25
100
AcDbLine
 10
139.0176255188
 20
-94.216373838
 30
0.0
 11
139.0176255188
 21
-184.216373838
 31
0.0
  0
INSERT
  5
DD
330
1F
100
AcDbEntity
  8
FORMAT
 62
     7
100
AcDbBlockReference
  2
SW_CENTERMARKSYMBOL_3
 10
94.0176255188
 20
-139.216373838
 30
0.0
  0
LINE
  5
DE
330
1F
100
AcDbEntity
  8
0
  6
Continuous
 62
     7
370
    25
100
AcDbLine
 10
444.559270386
 20
-28.3304504735
 30
0.0
 11
373.8485922674
 21
-69.1508560646
 31
0.0
  0
LINE
  5
DF
330
1F
100
AcDbEntity
  8
0
  6
Continuous
 62
     7
370
    25
100
AcDbLine
 10
418.844935236
 20
-147.0952536789
 30
0.0
 11
489.5556133547
 21
-106.2748480878
 31
0.0
  0
LINE
  5
E0
330
1F
100
AcDbEntity
  8
0
  6
Continuous
 62
     7
370
    25
100
AcDbLine
 10
319.5269585983
 20
-163.2365739226
 30
0.0
 11
319.5269585983
 21
-244.8906551112
 31
0.0
  0
LINE
  5
E1
330
1F
100
AcDbEntity
  8
0
  6
Continuous
 62
     7
370
    25
100
AcDbLine
 10
409.5269585983
 20
-244.8906551112
 30
0.0
 11
409.5269585983
 21
-163.2365739226
 31
0.0
  0
SPLINE
  5
E2
330
1F
100
AcDbEntity
  8
0
  6
Continuous
 62
     7
370
    25
100
AcDbSpline
210
0.0
220
0.0
230
1.0
 70
     8
 71
     3
 72
    36
 73
    32
 74
     0
 42
0.00000001
 43
0.00000001
 40
0.0
 40
0.0
 40
0.0
 40
0.0
 40
0.0225101291122289
 40
0.0571004036528209
 40
0.0917834121570324
 40
0.1266415248948584
 40
0.1616031622058436
 40
0.1965913380300883
 40
0.2315541967224618
 40
0.266458366546808
 40
0.3012841715955738
 40
0.3360242559951866
 40
0.370681592306932
 40
0.4052673660275095
 40
0.4397990154829664
 40
0.4742985478173543
 40
0.5087911433367993
 40
0.5433039969913558
 40
0.5778582581551363
 40
0.6124800581085155
 40
0.6471972165512776
 40
0.6820358275059714
 40
0.717018921095677
 40
0.7521647898699808
 40
0.7874849096700882
 40
0.8229814559224644
 40
0.858644547545499
 40
0.8944495559982237
 40
0.9303550765874707
 40
0.9662829033042596
 40
0.9999999999999999
 40
0.9999999999999999
 40
0.9999999999999999
 40
0.9999999999999999
 10
373.8485922673902
 20
-69.1508560646353
 30
0.0
 10
373.1394173147038
 20
-69.5682256511571
 30
0.0
 10
371.3404860044045
 20
-70.626947782158
 30
0.0
 10
368.5113968117755
 20
-72.4586936514856
 30
0.0
 10
365.3711440303068
 20
-74.66893887481754
 30
0.0
 10
362.2967455098318
 20
-77.0256364263151
 30
0.0
 10
359.2918097134381
 20
-79.52028150349605
 30
0.0
 10
356.3653130869809
 20
-82.1441986332967
 30
0.0
 10
353.5243820540521
 20
-84.88768719225781
 30
0.0
 10
350.7745263981179
 20
-87.74209708925251
 30
0.0
 10
348.1200012396591
 20
-90.69943807392966
 30
0.0
 10
345.5641888053641
 20
-93.75246566259953
 30
0.0
 10
343.1098265691614
 20
-96.89467150251463
 30
0.0
 10
340.7592397282837
 20
-100.1202440438572
 30
0.0
 10
338.5145393276119
 20
-103.423989345766
 30
0.0
 10
336.3777848311453
 20
-106.8012425788176
 30
0.0
 10
334.3511125231796
 20
-110.24777830582
 30
0.0
 10
332.4369670990151
 20
-113.7594847619005
 30
0.0
 10
330.6380539336042
 20
-117.332426482234
 30
0.0
 10
328.9573473494821
 20
-120.9628471070485
 30
0.0
 10
327.3980515849791
 20
-124.6473415511144
 30
0.0
 10
325.9637568303256
 20
-128.3825881418815
 30
0.0
 10
324.6585299512707
 20
-132.1651200552517
 30
0.0
 10
323.4869398397639
 20
-135.9911361128412
 30
0.0
 10
322.454100814111
 20
-139.8562592390882
 30
0.0
 10
321.5655144202354
 20
-143.7552616792695
 30
0.0
 10
320.8274522385032
 20
-147.6817043223504
 30
0.0
 10
320.2449878968405
 20
-151.6277857235794
 30
0.0
 10
319.8285110538698
 20
-155.5827836509491
 30
0.0
 10
319.5732295099975
 20
-159.4567131138796
 30
0.0
 10
319.542052351332
 20
-162.0035684893849
 30
0.0
 10
319.5269585983071
 20
-163.2365739226356
 30
0.0
  0
SPLINE
  5
E3
330
1F
100
AcDbEntity
  8
0
  6
Continuous
 62
     7
370
    25
100
AcDbSpline
210
0.0
220
0.0
230
1.0
 70
     8
 71
     3
 72
    32
 73
    28
 74
     0
 42
0.00000001
 43
0.00000001
 40
0.0
 40
0.0
 40
0.0
 40
0.0
 40
0.0031954405206567
 40
0.0476692371455592
 40
0.0905407596119299
 40
0.1322603945412921
 40
0.1732321724335416
 40
0.2138042432198451
 40
0.2542613799171337
 40
0.294819951673197
 40
0.3355935216903562
 40
0.376661586649951
 40
0.4180611983070113
 40
0.4597755987028215
 40
0.501746897421593
 40
0.5438910951939213
 40
0.5860966031405401
 40
0.6282658839419564
 40
0.6703487788459104
 40
0.7123442745415545
 40
0.7543149549641806
 40
0.7963979642984598
 40
0.8387702932274195
 40
0.8816747226248808
 40
0.9254551846394338
 40
0.9705234322729173
 40
1.0
 40
1.0
 40
1.0
 40
1.0
 10
409.5264942434291
 20
-163.2752055681101
 30
0.0
 10
409.5264843050541
 20
-163.276997733364
 30
0.0
 10
409.5263360454464
 20
-163.3037330613861
 30
0.0
 10
409.5290233233853
 20
-163.206109933497
 30
0.0
 10
409.5534313473072
 20
-162.9683330805154
 30
0.0
 10
409.611488734677
 20
-162.5634337512281
 30
0.0
 10
409.7140307973267
 20
-162.0223275953481
 30
0.0
 10
409.8705392574692
 20
-161.3504099623551
 30
0.0
 10
410.0887708475649
 20
-160.5614405786901
 30
0.0
 10
410.374492810802
 20
-159.6695374259548
 30
0.0
 10
410.7311146393401
 20
-158.6916111340878
 30
0.0
 10
411.1593967635749
 20
-157.6465833285671
 30
0.0
 10
411.6573552324371
 20
-156.5549744780886
 30
0.0
 10
412.2200101387831
 20
-155.4387060550194
 30
0.0
 10
412.8392274543678
 20
-154.3206978064928
 30
0.0
 10
413.5036983717789
 20
-153.2242515785543
 30
0.0
 10
414.1992052034873
 20
-152.1720845180144
 30
0.0
 10
414.9092018814334
 20
-151.1851698766051
 30
0.0
 10
415.6155883445908
 20
-150.2816984672254
 30
0.0
 10
416.2994152217992
 20
-149.4764578457194
 30
0.0
 10
416.941394678987
 20
-148.7805812615614
 30
0.0
 10
417.522467637952
 20
-148.2014507111067
 30
0.0
 10
418.0234679353334
 20
-147.7431284401308
 30
0.0
 10
418.4286433735257
 20
-147.4044040860802
 30
0.0
 10
418.7145366552631
 20
-147.1862476924301
 30
0.0
 10
418.8706940482898
 20
-147.0802637228823
 30
0.0
 10
418.8670827708853
 20
-147.0827330467208
 30
0.0
 10
418.8656547968205
 20
-147.0837094686358
 30
0.0
  0
LWPOLYLINE
  5
E4
330
1F
100
AcDbEntity
  8
0
  6
Continuous
 62
     7
370
    25
100
AcDbPolyline
 90
       96
 70
   128
 43
0.0
 10
435.237636717
 20
-48.9334667646
 10
435.3072066729
 20
-51.4020833175
 10
435.5156123288
 20
-53.9402289997
 10
435.8619423799
 20
-56.5368051459
 10
436.344682413
 20
-59.1804575892
 10
436.9617215287
 20
-61.8596263102
 10
437.710361572
 20
-64.5625959857
 10
438.5873289304
 20
-67.2775472172
 10
439.5887888489
 20
-69.9926082135
 10
440.7103621979
 20
-72.6959067039
 10
441.9471446227
 20
-75.3756218518
 10
443.2937279884
 20
-78.0200359447
 10
444.7442240284
 20
-80.6175856327
 10
446.2922900928
 20
-83.1569124918
 10
447.9311568824
 20
-85.6269126918
 10
449.6536580499
 20
-88.0167855503
 10
451.4522615358
 20
-90.3160807613
 10
453.3191025048
 20
-92.5147440919
 10
455.2460177363
 20
-94.6031613469
 10
457.2245813203
 20
-96.5722004088
 10
459.2461415016
 20
-98.413251171
 10
461.3018585119
 20
-100.1182631867
 10
463.3827432238
 20
-101.6797808724
 10
465.4796964579
 20
-103.0909761085
 10
467.5835487712
 20
-104.3456780973
 10
469.685100553
 20
-105.4384003461
 10
471.7751622519
 20
-106.3643646588
 10
473.8445945599
 20
-107.1195220288
 10
475.8843483761
 20
-107.7005703452
 10
477.8855043761
 20
-108.1049688316
 10
479.8393120138
 20
-108.3309491562
 10
481.7372277856
 20
-108.3775231646
 10
483.5709525886
 20
-108.2444872005
 10
485.3324680109
 20
-107.9324229963
 10
487.0140713938
 20
-107.4426951293
 10
488.6084095135
 20
-106.7774450551
 10
490.108510735
 20
-105.9395817427
 10
491.5078154975
 20
-104.9327689554
 10
492.8002049972
 20
-103.7614092293
 10
493.9800279436
 20
-102.4306246224
 10
495.0421252713
 20
-100.9462343172
 10
495.9818526988
 20
-99.3147291749
 10
496.7951010372
 20
-97.5432433522
 10
497.4783141585
 20
-95.639523106
 10
498.0285045454
 20
-93.6118929205
 10
498.4432663555
 20
-91.4692191067
 10
498.7207859408
 20
-89.2208710318
 10
498.8598497789
 20
-86.8766801501
 10
498.8598497789
 20
-84.4468970118
 10
498.7207859408
 20
-81.9421464402
 10
498.4432663555
 20
-79.3733810725
 10
498.0285045454
 20
-76.7518334658
 10
497.4783141585
 20
-74.088966981
 10
496.7951010372
 20
-71.3964256555
 10
495.9818526988
 20
-68.6859832875
 10
495.0421252713
 20
-65.9694919519
 10
493.9800279436
 20
-63.2588301741
 10
492.8002049972
 20
-60.5658509884
 10
491.5078154975
 20
-57.9023301075
 10
490.108510735
 20
-55.2799144305
 10
488.6084095135
 20
-52.710071114
 10
487.0140713938
 20
-50.204037429
 10
485.3324680109
 20
-47.772771623
 10
483.5709525886
 20
-45.4269050029
 10
481.7372277856
 20
-43.1766954465
 10
479.8393120138
 20
-41.0319825477
 10
477.8855043761
 20
-39.0021445902
 10
475.8843483761
 20
-37.0960575391
 10
473.8445945599
 20
-35.3220562279
 10
471.7751622519
 20
-33.6878979131
 10
469.685100553
 20
-32.2007283532
 10
467.5835487712
 20
-30.8670505623
 10
465.4796964579
 20
-29.6926963739
 10
463.3827432238
 20
-28.6828009402
 10
461.3018585119
 20
-27.841780277
 10
459.2461415015
 20
-27.1733119537
 10
457.2245813203
 20
-26.680319012
 10
455.2460177363
 20
-26.3649571847
 10
453.3191025048
 20
-26.2286054689
 10
451.4522615358
 20
-26.271860096
 10
449.6536580499
 20
-26.4945319243
 10
447.9311568824
 20
-26.8956472667
 10
446.2922900928
 20
-27.4734521479
 10
444.7442240284
 20
-28.2254199741
 10
443.2937279883
 20
-29.1482625813
 10
441.9471446227
 20
-30.2379446137
 10
440.7103621979
 20
-31.4897011689
 10
439.5887888489
 20
-32.8980586341
 10
438.5873289304
 20
-34.4568586203
 10
437.710361572
 20
-36.1592848919
 10
436.9617215287
 20
-37.9978931719
 10
436.344682413
 20
-39.9646436941
 10
435.8619423799
 20
-42.050936359
 10
435.5156123288
 20
-44.2476483395
 10
435.3072066729
 20
-46.545173973
 10
435.237636717
 20
-48.9334667646
  0
LWPOLYLINE
  5
E5
330
1F
100
AcDbEntity
  8
0
  6
Continuous
 62
     7
370
    25
100
AcDbPolyline
 90
       87
 70
   128
 43
0.0
 10
441.0359123227
 20
-52.2807400231
 10
441.1053303822
 20
-50.1273997671
 10
441.3132141852
 20
-48.0656968986
 10
441.6584545818
 20
-46.1066314943
 10
442.139209565
 20
-44.2606560159
 10
442.752914099
 20
-42.5376195411
 10
443.4962938045
 20
-40.9467152152
 10
444.3653824293
 20
-39.4964312011
 10
445.3555430094
 20
-38.1945053913
 10
446.4614926098
 20
-37.0478841236
 10
447.6773305108
 20
-36.0626851183
 10
448.9965696912
 20
-35.2441648386
 10
450.412171439
 20
-34.5966904442
 10
451.9165829066
 20
-34.1237164911
 10
453.5017774078
 20
-33.8277665001
 10
455.159297244
 20
-33.7104194925
 10
456.8802988299
 20
-33.7723015652
 10
458.6555998772
 20
-34.0130825506
 10
460.4757283869
 20
-34.431477778
 10
462.3309731857
 20
-35.0252549279
 10
464.2114357399
 20
-35.7912459422
 10
466.1070829682
 20
-36.7253639274
 10
468.0078007725
 20
-37.8226249599
 10
469.9034480008
 20
-39.0771746774
 10
471.7839105551
 20
-40.4823195144
 10
473.6391553539
 20
-42.030562415
 10
475.4592838635
 20
-43.7136428336
 10
477.2345849108
 20
-45.522580808
 10
478.9555864967
 20
-47.4477248712
 10
480.6131063329
 20
-49.4788035469
 10
482.1983008341
 20
-51.6049801515
 10
483.7027123017
 20
-53.8149106129
 10
485.1183140496
 20
-56.0968039958
 10
486.4375532299
 20
-58.4384854118
 10
487.6533911309
 20
-60.8274609772
 10
488.7593407313
 20
-63.250984474
 10
489.7495013114
 20
-65.6961253555
 10
490.6185899362
 20
-68.1498377373
 10
491.3619696417
 20
-70.5990300021
 10
491.9756741757
 20
-73.0306346494
 10
492.4564291589
 20
-75.4316780165
 10
492.8016695555
 20
-77.7893494981
 10
493.0095533585
 20
-80.0910698967
 10
493.078971418
 20
-82.3245585382
 10
493.0095533585
 20
-84.4778987941
 10
492.8016695555
 20
-86.5396016627
 10
492.4564291589
 20
-88.4986670669
 10
491.9756741757
 20
-90.3446425454
 10
491.3619696417
 20
-92.0676790201
 10
490.6185899362
 20
-93.658583346
 10
489.7495013114
 20
-95.1088673602
 10
488.7593407313
 20
-96.4107931699
 10
487.6533911309
 20
-97.5574144377
 10
486.4375532299
 20
-98.5426134429
 10
485.1183140496
 20
-99.3611337227
 10
483.7027123017
 20
-100.0086081171
 10
482.1983008341
 20
-100.4815820701
 10
480.6131063329
 20
-100.7775320611
 10
478.9555864967
 20
-100.8948790688
 10
477.2345849108
 20
-100.8329969961
 10
475.4592838635
 20
-100.5922160107
 10
473.6391553539
 20
-100.1738207832
 10
471.7839105551
 20
-99.5800436334
 10
469.9034480008
 20
-98.8140526191
 10
468.0078007725
 20
-97.8799346339
 10
466.1070829682
 20
-96.7826736013
 10
464.2114357399
 20
-95.5281238838
 10
462.3309731856
 20
-94.1229790469
 10
460.4757283869
 20
-92.5747361463
 10
458.6555998772
 20
-90.8916557276
 10
456.8802988299
 20
-89.0827177533
 10
455.159297244
 20
-87.15757369
 10
453.5017774078
 20
-85.1264950143
 10
451.9165829066
 20
-83.0003184097
 10
450.412171439
 20
-80.7903879484
 10
448.9965696912
 20
-78.5084945655
 10
447.6773305108
 20
-76.1668131495
 10
446.4614926098
 20
-73.777837584
 10
445.3555430094
 20
-71.3543140873
 10
444.3653824293
 20
-68.9091732058
 10
443.4962938045
 20
-66.455460824
 10
442.752914099
 20
-64.0062685592
 10
442.139209565
 20
-61.5746639118
 10
441.6584545818
 20
-59.1736205447
 10
441.3132141852
 20
-56.8159490631
 10
441.1053303822
 20
-54.5142286645
 10
441.0359123227
 20
-52.2807400231
  0
LWPOLYLINE
  5
E6
330
1F
100
AcDbEntity
  8
0
  6
Continuous
 62
     7
370
    25
100
AcDbPolyline
 90
       96
 70
   128
 43
0.0
 10
332.7071534449
 20
-226.5214725952
 10
334.8797129165
 20
-225.3476044698
 10
337.1819122501
 20
-224.2591931324
 10
339.6036845138
 20
-223.2609979287
 10
342.1344399136
 20
-222.3573837126
 10
344.7631121002
 20
-221.5523017589
 10
347.4782065588
 20
-220.8492724864
 10
350.2678508722
 20
-220.251370063
 10
353.1198466357
 20
-219.7612089639
 10
356.0217227974
 20
-219.380932539
 10
358.9607901912
 20
-219.1122036403
 10
361.9241970232
 20
-218.9561973508
 10
364.8989850693
 20
-218.9135958464
 10
367.8721463383
 20
-218.9845854127
 10
370.8306799525
 20
-219.1688556303
 10
373.7616489971
 20
-219.4656007324
 10
376.6522370902
 20
-219.8735231282
 10
379.4898044257
 20
-220.3908390769
 10
382.2619430434
 20
-221.0152864874
 10
384.9565310866
 20
-221.7441348101
 10
387.5617858073
 20
-222.5741969768
 10
390.0663150896
 20
-223.5018433367
 10
392.4591672642
 20
-224.5230175284
 10
394.7298789972
 20
-225.633254217
 10
396.8685210441
 20
-226.8276986199
 10
398.8657416673
 20
-228.1011277356
 10
400.7128075292
 20
-229.4479731826
 10
402.4016418808
 20
-230.8623455485
 10
403.9248598792
 20
-232.3380601428
 10
405.2758008795
 20
-233.8686640411
 10
406.4485575606
 20
-235.4474643019
 10
407.4380017559
 20
-237.0675572334
 10
408.2398068776
 20
-238.7218585814
 10
408.850466836
 20
-240.4031345071
 10
409.2673113704
 20
-242.1040332186
 10
409.4885177257
 20
-243.8171171186
 10
409.5131186229
 20
-245.5348953271
 10
409.3410064885
 20
-247.249856437
 10
408.9729339251
 20
-248.9545013599
 10
408.4105104203
 20
-250.641376117
 10
407.6561953089
 20
-252.3031044344
 10
406.7132870192
 20
-253.932419997
 10
405.585908649
 20
-255.5221982222
 10
404.2789899372
 20
-257.0654874145
 10
402.7982457068
 20
-258.5555391629
 10
401.1501508755
 20
-259.9858378501
 10
399.3419121426
 20
-261.3501291441
 10
397.3814364762
 20
-262.6424473459
 10
395.2772965374
 20
-263.8571414771
 10
393.0386931949
 20
-264.9888999892
 10
390.6754152914
 20
-266.0327739902
 10
388.1977968399
 20
-266.9841988846
 10
385.6166718356
 20
-267.8390143336
 10
382.9433268813
 20
-268.5934824466
 10
380.1894518343
 20
-269.2443041266
 10
377.3670886895
 20
-269.7886334959
 10
374.4885789229
 20
-270.2240903407
 10
371.5665095251
 20
-270.548770519
 10
368.6136579623
 20
-270.7612542871
 10
365.642936303
 20
-270.8606125074
 10
362.6673347571
 20
-270.8464107117
 10
359.6998648731
 20
-270.7187110009
 10
356.7535026418
 20
-270.4780717733
 10
353.8411317556
 20
-270.1255452831
 10
350.9754872712
 20
-269.6626730388
 10
348.1690999229
 20
-269.0914790631
 10
345.4342413286
 20
-268.4144610419
 10
342.782870329
 20
-267.6345794026
 10
340.2265806949
 20
-266.7552443693
 10
337.7765504304
 20
-265.7803010504
 10
335.4434928946
 20
-264.7140126249
 10
333.2376099543
 20
-263.5610417008
 10
331.1685473745
 20
-262.3264299266
 10
329.2453526393
 20
-261.0155759454
 10
327.47643539
 20
-259.6342117882
 10
325.8695306517
 20
-258.188377809
 10
324.4316650098
 20
-256.6843962719
 10
323.1691258851
 20
-255.1288437054
 10
322.0874340399
 20
-253.5285221452
 10
321.1913194373
 20
-251.8904293902
 10
320.4847005586
 20
-250.2217284034
 10
319.9706672683
 20
-248.5297159894
 10
319.6514673031
 20
-246.8217908881
 10
319.5284964434
 20
-245.1054214215
 10
319.6022924094
 20
-243.3881128364
 10
319.8725325101
 20
-241.6773744864
 10
320.3380350544
 20
-239.980686995
 10
320.996764518
 20
-238.3054695448
 10
321.8458404445
 20
-236.6590474356
 10
322.8815500411
 20
-235.0486200524
 10
324.0993644132
 20
-233.4812293843
 10
325.4939583683
 20
-231.9637292319
 10
327.059233702
 20
-230.5027552373
 10
328.7883458634
 20
-229.104695868
 10
330.6737338851
 20
-227.7756644819
 10
332.7071534449
 20
-226.5214725952
  0
LWPOLYLINE
  5
E7
330
1F
100
AcDbEntity
  8
0
  6
Continuous
 62
     7
370
    25
100
AcDbPolyline
 90
       87
 70
   128
 43
0.0
 10
338.5054290506
 20
-229.8687458537
 10
336.6753973728
 20
-231.0053490395
 10
334.9939658248
 20
-232.2160363409
 10
333.4701055713
 20
-233.4943482175
 10
332.1119470661
 20
-234.8334643223
 10
330.9267366726
 20
-236.2262398913
 10
329.920798001
 20
-237.6652438645
 10
329.0994981693
 20
-239.1427985328
 10
328.4672191675
 20
-240.651020503
 10
328.0273344776
 20
-242.1818627581
 10
327.7821910748
 20
-243.7271575925
 10
327.7330969052
 20
-245.2786601896
 10
327.8803139075
 20
-246.8280926117
 10
328.2230566152
 20
-248.3671879664
 10
328.7594963477
 20
-249.8877345142
 10
329.4867709669
 20
-251.3816194812
 10
330.401000148
 20
-252.8408723449
 10
331.4973060829
 20
-254.2577073598
 10
332.7698395049
 20
-255.6245650981
 10
334.2118108978
 20
-256.9341527823
 10
335.8155267202
 20
-258.1794831955
 10
337.5724304544
 20
-259.3539119612
 10
339.4731482586
 20
-260.4511729938
 10
341.5075389812
 20
-261.4654119308
 10
343.6647482672
 20
-262.3912173688
 10
345.9332664719
 20
-263.223649735
 10
348.3009900691
 20
-263.9582676428
 10
350.7552862289
 20
-264.5911515877
 10
353.2830602195
 20
-265.11892486
 10
355.8708252728
 20
-265.538771561
 10
358.5047745427
 20
-265.8484516268
 10
361.1708547702
 20
-266.0463127804
 10
363.8548412637
 20
-266.1312993468
 10
366.5424137939
 20
-266.102957886
 10
369.2192329987
 20
-265.9614396118
 10
371.8710168893
 20
-265.7074995856
 10
374.4836170514
 20
-265.3424926873
 10
377.0430941326
 20
-264.8683663865
 10
379.5357922154
 20
-264.2876503523
 10
381.9484116769
 20
-263.6034429558
 10
384.2680801484
 20
-262.8193947398
 10
386.4824211951
 20
-261.9396889405
 10
388.5796203492
 20
-260.9690191691
 10
390.548488146
 20
-259.9125643687
 10
392.3785198238
 20
-258.775961183
 10
394.0599513719
 20
-257.5652738815
 10
395.5838116253
 20
-256.2869620049
 10
396.9419701305
 20
-254.9478459002
 10
398.127180524
 20
-253.5550703311
 10
399.1331191956
 20
-252.116066358
 10
399.9544190273
 20
-250.6385116896
 10
400.5866980291
 20
-249.1302897194
 10
401.026582719
 20
-247.5994474643
 10
401.2717261218
 20
-246.0541526299
 10
401.3208202914
 20
-244.5026500328
 10
401.1736032891
 20
-242.9532176107
 10
400.8308605814
 20
-241.414122256
 10
400.294420849
 20
-239.8935757082
 10
399.5671462298
 20
-238.3996907412
 10
398.6529170486
 20
-236.9404378775
 10
397.5566111137
 20
-235.5236028626
 10
396.2840776917
 20
-234.1567451244
 10
394.8421062988
 20
-232.8471574401
 10
393.2383904764
 20
-231.6018270269
 10
391.4814867423
 20
-230.4273982612
 10
389.580768938
 20
-229.3301372286
 10
387.5463782155
 20
-228.3158982916
 10
385.3891689294
 20
-227.3900928537
 10
383.1206507247
 20
-226.5576604874
 10
380.7529271275
 20
-225.8230425796
 10
378.2986309677
 20
-225.1901586347
 10
375.7708569771
 20
-224.6623853624
 10
373.1830919238
 20
-224.2425386614
 10
370.5491426539
 20
-223.9328585956
 10
367.8830624264
 20
-223.734997442
 10
365.199075933
 20
-223.6500108756
 10
362.5115034027
 20
-223.6783523365
 10
359.8346841979
 20
-223.8198706106
 10
357.1829003073
 20
-224.0738106368
 10
354.5703001452
 20
-224.4388175351
 10
352.010823064
 20
-224.9129438359
 10
349.5181249812
 20
-225.4936598702
 10
347.1055055197
 20
-226.1778672666
 10
344.7858370482
 20
-226.9619154827
 10
342.5714960015
 20
-227.8416212819
 10
340.4742968474
 20
-228.8122910533
 10
338.5054290506
 20
-229.8687458537
  0
LWPOLYLINE
  5
E8
330
1F
100
AcDbEntity
  8
0
  6
Continuous
 62
     1
370
    25
100
AcDbPolyline
 90
       13
 70
   128
 43
0.0
 10
396.3467637517
 20
-144.8673914066
 10
398.4497532674
 20
-146.0010845954
 10
400.5435469451
 20
-146.9691467978
 10
402.6189891576
 20
-147.7673449242
 10
404.6670045244
 20
-148.3921886571
 10
406.6786375952
 20
-148.840945714
 10
408.6450920105
 20
-149.1116537943
 10
410.5577689655
 20
-149.2031291606
 10
412.4083048106
 20
-149.1149718144
 10
414.1886076232
 20
-148.8475672453
 10
415.8908925922
 20
-148.4020847454
 10
417.5077160586
 20
-147.7804722963
 10
418.844935236
 20
-147.0952536789
  0
LWPOLYLINE
  5
E9
330
1F
100
AcDbEntity
  8
0
  6
Continuous
 62
     1
370
    25
100
AcDbPolyline
 90
       37
 70
   128
 43
0.0
 10
373.8485922674
 20
-69.1508560646
 10
372.9361722674
 20
-69.7221460785
 10
371.5630405031
 20
-70.7705367982
 10
370.2982816546
 20
-71.9822605754
 10
369.1474261907
 20
-73.3520188506
 10
368.1155065094
 20
-74.8738220192
 10
367.2070349329
 20
-76.5410156232
 10
366.4259839762
 20
-78.3463094492
 10
365.7757689766
 20
-80.2818094066
 10
365.2592331587
 20
-82.3390520466
 10
364.8786352023
 20
-84.5090415705
 10
364.6356393653
 20
-86.7822891662
 10
364.5313082068
 20
-89.1488545006
 10
364.5660979403
 20
-91.5983891853
 10
364.7398564393
 20
-94.1201820287
 10
365.0518239019
 20
-96.7032058721
 10
365.5006361739
 20
-99.3361658096
 10
366.0843307133
 20
-102.0075485772
 10
366.8003551726
 20
-104.7056728978
 10
367.6455785588
 20
-107.4187405603
 10
368.6163049252
 20
-110.1348880101
 10
369.7082895324
 20
-112.8422382254
 10
370.9167574096
 20
-115.5289526527
 10
372.2364242341
 20
-118.1832829733
 10
373.6615194388
 20
-120.7936224762
 10
375.1858114448
 20
-123.3485568107
 10
376.8026349112
 20
-125.8369138993
 10
378.5049198802
 20
-128.2478127893
 10
380.2852226928
 20
-130.5707112335
 10
382.1357585379
 20
-132.795451788
 10
384.0484354929
 20
-134.9123062283
 10
386.0148899082
 20
-136.9120180886
 10
388.026522979
 20
-138.7858431378
 10
390.0745383458
 20
-140.5255876156
 10
392.1499805583
 20
-142.1236440622
 10
394.243774236
 20
-143.5730245833
 10
396.3467637517
 20
-144.8673914066
  0
LWPOLYLINE
  5
EA
330
1F
100
AcDbEntity
  8
0
  6
Continuous
 62
     1
370
    25
100
AcDbPolyline
 90
       13
 70
   128
 43
0.0
 10
396.3467637517
 20
-144.8673914066
 10
398.3801833115
 20
-146.1215832934
 10
400.2655713332
 20
-147.4506146794
 10
401.9946834947
 20
-148.8486740487
 10
403.5599588283
 20
-150.3096480433
 10
404.9545527834
 20
-151.8271481957
 10
406.1723671555
 20
-153.3945388638
 10
407.2080767521
 20
-155.0049662471
 10
408.0571526787
 20
-156.6513883562
 10
408.7158821422
 20
-158.3266058064
 10
409.1813846865
 20
-160.0232932978
 10
409.4516247872
 20
-161.7340316478
 10
409.5269585983
 20
-163.2365739226
  0
LWPOLYLINE
  5
EB
330
1F
100
AcDbEntity
  8
0
  6
Continuous
 62
     1
370
    25
100
AcDbPolyline
 90
       37
 70
   128
 43
0.0
 10
319.5269585983
 20
-163.2365739226
 10
319.5653994709
 20
-162.16303593
 10
319.7866058262
 20
-160.44995203
 10
320.2034503607
 20
-158.7490533185
 10
320.814110319
 20
-157.0677773928
 10
321.6159154407
 20
-155.4134760448
 10
322.605359636
 20
-153.7933831133
 10
323.7781163171
 20
-152.2145828525
 10
325.1290573174
 20
-150.6839789543
 10
326.6522753158
 20
-149.20826436
 10
328.3411096674
 20
-147.793891994
 10
330.1881755293
 20
-146.447046547
 10
332.1853961525
 20
-145.1736174313
 10
334.3240381994
 20
-143.9791730284
 10
336.5947499325
 20
-142.8689363399
 10
338.987602107
 20
-141.8477621481
 10
341.4921313893
 20
-140.9201157882
 10
344.09738611
 20
-140.0900536215
 10
346.7919741532
 20
-139.3612052988
 10
349.5641127709
 20
-138.7367578883
 10
352.4016801064
 20
-138.2194419396
 10
355.2922681995
 20
-137.8115195438
 10
358.2232372441
 20
-137.5147744417
 10
361.1817708583
 20
-137.3305042241
 10
364.1549321273
 20
-137.2595146579
 10
367.1297201734
 20
-137.3021161622
 10
370.0931270054
 20
-137.4581224517
 10
373.0321943992
 20
-137.7268513504
 10
375.9340705609
 20
-138.1071277754
 10
378.7860663244
 20
-138.5972888744
 10
381.5757106378
 20
-139.1951912978
 10
384.2908050964
 20
-139.8982205704
 10
386.919477283
 20
-140.703302524
 10
389.4502326828
 20
-141.6069167402
 10
391.8720049465
 20
-142.6051119438
 10
394.1742042801
 20
-143.6935232812
 10
396.3467637517
 20
-144.8673914066
  0
ENDSEC
  0
SECTION
  2
OBJECTS
  0
DICTIONARY
  5
C
330
0
100
AcDbDictionary
281
     1
  3
ACAD_GROUP
350
D
  3
ACAD_LAYOUT
350
1A
  3
ACAD_MLINESTYLE
350
17
  3
ACAD_PLOTSETTINGS
350
19
  3
ACAD_PLOTSTYLENAME
350
E
  3
ACAD_SCALELIST
350
47
  3
DWGPROPS
350
EC
  0
DICTIONARY
  5
D
102
{ACAD_REACTORS
330
C
102
}
330
C
100
AcDbDictionary
281
     1
  0
DICTIONARY
  5
1A
102
{ACAD_REACTORS
330
C
102
}
330
C
100
AcDbDictionary
281
     1
  3
Layout1
350
1E
  3
Layout2
350
26
  3
Model
350
22
  0
DICTIONARY
  5
17
102
{ACAD_REACTORS
330
C
102
}
330
C
100
AcDbDictionary
281
     1
  3
Standard
350
18
  0
DICTIONARY
  5
19
102
{ACAD_REACTORS
330
C
102
}
330
C
100
AcDbDictionary
281
     1
  0
ACDBDICTIONARYWDFLT
  5
E
102
{ACAD_REACTORS
330
C
102
}
330
C
100
AcDbDictionary
281
     1
  3
Normal
350
F
100
AcDbDictionaryWithDefault
340
F
  0
DICTIONARY
  5
47
102
{ACAD_REACTORS
330
C
102
}
330
C
100
AcDbDictionary
281
     1
  3
A0
350
48
  3
A1
350
49
  3
A2
350
4A
  3
A3
350
4B
  3
A4
350
4C
  3
A5
350
4D
  3
A6
350
4E
  3
A7
350
4F
  3
A8
350
50
  3
A9
350
51
  3
B0
350
52
  3
B1
350
53
  3
B2
350
54
  3
B3
350
55
  3
B4
350
56
  3
B5
350
57
  3
B6
350
58
  3
B7
350
59
  3
B8
350
5A
  3
B9
350
5B
  3
C0
350
5C
  3
C1
350
5D
  3
C2
350
5E
  3
C3
350
5F
  3
C4
350
60
  3
C5
350
61
  3
C6
350
62
  3
C7
350
63
  3
C8
350
64
  3
C9
350
65
  3
D0
350
66
  3
D1
350
67
  3
D2
350
68
  0
XRECORD
  5
EC
102
{ACAD_REACTORS
330
C
102
}
330
C
100
AcDbXrecord
280
     1
  1
DWGPROPS COOKIE
  2

  3

  4

  6

  7

  8
b.kav
  9

300
=
301
=
302
=
303
=
304
=
305
=
306
=
307
=
308
=
309
=
 40
0.0
 41
2459935.574338692
 42
2459935.574338877
  1

 90
        0
  0
LAYOUT
  5
1E
102
{ACAD_REACTORS
330
1A
102
}
330
1A
100
AcDbPlotSettings
  1

  2
none_device
  4

  6

 40
0.0
 41
0.0
 42
0.0
 43
0.0
 44
0.0
 45
0.0
 46
0.0
 47
0.0
 48
0.0
 49
0.0
140
0.0
141
0.0
142
1.0
143
1.0
 70
   688
 72
     1
 73
     0
 74
     5
  7

 75
    16
147
1.0
148
0.0
149
0.0
100
AcDbLayout
  1
Layout1
 70
     1
 71
     1
 10
0.0
 20
0.0
 11
420.0
 21
297.0
 12
0.0
 22
0.0
 32
0.0
 14
1.0000000000E+20
 24
1.0000000000E+20
 34
1.0000000000E+20
 15
-1.0000000000E+20
 25
-1.0000000000E+20
 35
-1.0000000000E+20
146
0.0
 13
0.0
 23
0.0
 33
0.0
 16
1.0
 26
0.0
 36
0.0
 17
0.0
 27
1.0
 37
0.0
 76
     0
330
1B
  0
LAYOUT
  5
26
102
{ACAD_REACTORS
330
1A
102
}
330
1A
100
AcDbPlotSettings
  1

  2
none_device
  4

  6

 40
0.0
 41
0.0
 42
0.0
 43
0.0
 44
0.0
 45
0.0
 46
0.0
 47
0.0
 48
0.0
 49
0.0
140
0.0
141
0.0
142
1.0
143
1.0
 70
   688
 72
     1
 73
     0
 74
     5
  7

 75
    16
147
1.0
148
0.0
149
0.0
100
AcDbLayout
  1
Layout2
 70
     1
 71
     2
 10
0.0
 20
0.0
 11
0.0
 21
0.0
 12
0.0
 22
0.0
 32
0.0
 14
0.0
 24
0.0
 34
0.0
 15
0.0
 25
0.0
 35
0.0
146
0.0
 13
0.0
 23
0.0
 33
0.0
 16
1.0
 26
0.0
 36
0.0
 17
0.0
 27
1.0
 37
0.0
 76
     0
330
23
  0
LAYOUT
  5
22
102
{ACAD_REACTORS
330
1A
102
}
330
1A
100
AcDbPlotSettings
  1

  2
none_device
  4
Letter_(8.50_x_11.00_Inches)
  6

 40
6.35
 41
6.35
 42
6.35000508
 43
6.35000508
 44
215.9
 45
279.4
 46
0.0
 47
0.0
 48
0.0
 49
0.0
140
0.0
141
0.0
142
1.0
143
1.0
 70
  1712
 72
     1
 73
     0
 74
     0
  7

 75
     0
147
1.0
148
0.0
149
0.0
100
AcDbLayout
  1
Model
 70
     1
 71
     0
 10
0.0
 20
0.0
 11
279.4
 21
215.9
 12
0.0
 22
0.0
 32
0.0
 14
0.0
 24
0.0
 34
0.0
 15
279.4
 25
215.9
 35
0.0
146
0.0
 13
0.0
 23
0.0
 33
0.0
 16
1.0
 26
0.0
 36
0.0
 17
0.0
 27
1.0
 37
0.0
 76
     0
330
1F
331
29
  0
MLINESTYLE
  5
18
102
{ACAD_REACTORS
330
17
102
}
330
17
100
AcDbMlineStyle
  2
Standard
 70
     0
  3

 62
   256
 51
90.0
 52
90.0
 71
     2
 49
0.5
 62
   256
  6
BYLAYER
 49
-0.5
 62
   256
  6
BYLAYER
  0
ACDBPLACEHOLDER
  5
F
102
{ACAD_REACTORS
330
E
102
}
330
E
  0
SCALE
  5
48
102
{ACAD_REACTORS
330
47
102
}
330
47
100
AcDbScale
 70
     0
300
1:1
140
1.0
141
1.0
290
     1
  0
SCALE
  5
49
102
{ACAD_REACTORS
330
47
102
}
330
47
100
AcDbScale
 70
     0
300
1:2
140
1.0
141
2.0
290
     0
  0
SCALE
  5
4A
102
{ACAD_REACTORS
330
47
102
}
330
47
100
AcDbScale
 70
     0
300
1:4
140
1.0
141
4.0
290
     0
  0
SCALE
  5
4B
102
{ACAD_REACTORS
330
47
102
}
330
47
100
AcDbScale
 70
     0
300
1:5
140
1.0
141
5.0
290
     0
  0
SCALE
  5
4C
102
{ACAD_REACTORS
330
47
102
}
330
47
100
AcDbScale
 70
     0
300
1:8
140
1.0
141
8.0
290
     0
  0
SCALE
  5
4D
102
{ACAD_REACTORS
330
47
102
}
330
47
100
AcDbScale
 70
     0
300
1:10
140
1.0
141
10.0
290
     0
  0
SCALE
  5
4E
102
{ACAD_REACTORS
330
47
102
}
330
47
100
AcDbScale
 70
     0
300
1:16
140
1.0
141
16.0
290
     0
  0
SCALE
  5
4F
102
{ACAD_REACTORS
330
47
102
}
330
47
100
AcDbScale
 70
     0
300
1:20
140
1.0
141
20.0
290
     0
  0
SCALE
  5
50
102
{ACAD_REACTORS
330
47
102
}
330
47
100
AcDbScale
 70
     0
300
1:30
140
1.0
141
30.0
290
     0
  0
SCALE
  5
51
102
{ACAD_REACTORS
330
47
102
}
330
47
100
AcDbScale
 70
     0
300
1:40
140
1.0
141
40.0
290
     0
  0
SCALE
  5
52
102
{ACAD_REACTORS
330
47
102
}
330
47
100
AcDbScale
 70
     0
300
1:50
140
1.0
141
50.0
290
     0
  0
SCALE
  5
53
102
{ACAD_REACTORS
330
47
102
}
330
47
100
AcDbScale
 70
     0
300
1:100
140
1.0
141
100.0
290
     0
  0
SCALE
  5
54
102
{ACAD_REACTORS
330
47
102
}
330
47
100
AcDbScale
 70
     0
300
2:1
140
2.0
141
1.0
290
     0
  0
SCALE
  5
55
102
{ACAD_REACTORS
330
47
102
}
330
47
100
AcDbScale
 70
     0
300
4:1
140
4.0
141
1.0
290
     0
  0
SCALE
  5
56
102
{ACAD_REACTORS
330
47
102
}
330
47
100
AcDbScale
 70
     0
300
8:1
140
8.0
141
1.0
290
     0
  0
SCALE
  5
57
102
{ACAD_REACTORS
330
47
102
}
330
47
100
AcDbScale
 70
     0
300
10:1
140
10.0
141
1.0
290
     0
  0
SCALE
  5
58
102
{ACAD_REACTORS
330
47
102
}
330
47
100
AcDbScale
 70
     0
300
100:1
140
100.0
141
1.0
290
     0
  0
SCALE
  5
59
102
{ACAD_REACTORS
330
47
102
}
330
47
100
AcDbScale
 70
     0
300
1/128" = 1'-0"
140
0.0078125
141
12.0
290
     0
  0
SCALE
  5
5A
102
{ACAD_REACTORS
330
47
102
}
330
47
100
AcDbScale
 70
     0
300
1/64" = 1'-0"
140
0.015625
141
12.0
290
     0
  0
SCALE
  5
5B
102
{ACAD_REACTORS
330
47
102
}
330
47
100
AcDbScale
 70
     0
300
1/32" = 1'-0"
140
0.03125
141
12.0
290
     0
  0
SCALE
  5
5C
102
{ACAD_REACTORS
330
47
102
}
330
47
100
AcDbScale
 70
     0
300
1/16" = 1'-0"
140
0.0625
141
12.0
290
     0
  0
SCALE
  5
5D
102
{ACAD_REACTORS
330
47
102
}
330
47
100
AcDbScale
 70
     0
300
3/32" = 1'-0"
140
0.09375
141
12.0
290
     0
  0
SCALE
  5
5E
102
{ACAD_REACTORS
330
47
102
}
330
47
100
AcDbScale
 70
     0
300
1/8" = 1'-0"
140
0.125
141
12.0
290
     0
  0
SCALE
  5
5F
102
{ACAD_REACTORS
330
47
102
}
330
47
100
AcDbScale
 70
     0
300
3/16" = 1'-0"
140
0.1875
141
12.0
290
     0
  0
SCALE
  5
60
102
{ACAD_REACTORS
330
47
102
}
330
47
100
AcDbScale
 70
     0
300
1/4" = 1'-0"
140
0.25
141
12.0
290
     0
  0
SCALE
  5
61
102
{ACAD_REACTORS
330
47
102
}
330
47
100
AcDbScale
 70
     0
300
3/8" = 1'-0"
140
0.375
141
12.0
290
     0
  0
SCALE
  5
62
102
{ACAD_REACTORS
330
47
102
}
330
47
100
AcDbScale
 70
     0
300
1/2" = 1'-0"
140
0.5
141
12.0
290
     0
  0
SCALE
  5
63
102
{ACAD_REACTORS
330
47
102
}
330
47
100
AcDbScale
 70
     0
300
3/4" = 1'-0"
140
0.75
141
12.0
290
     0
  0
SCALE
  5
64
102
{ACAD_REACTORS
330
47
102
}
330
47
100
AcDbScale
 70
     0
300
1" = 1'-0"
140
1.0
141
12.0
290
     0
  0
SCALE
  5
65
102
{ACAD_REACTORS
330
47
102
}
330
47
100
AcDbScale
 70
     0
300
1-1/2" = 1'-0"
140
1.5
141
12.0
290
     0
  0
SCALE
  5
66
102
{ACAD_REACTORS
330
47
102
}
330
47
100
AcDbScale
 70
     0
300
3" = 1'-0"
140
3.0
141
12.0
290
     0
  0
SCALE
  5
67
102
{ACAD_REACTORS
330
47
102
}
330
47
100
AcDbScale
 70
     0
300
6" = 1'-0"
140
6.0
141
12.0
290
     0
  0
SCALE
  5
68
102
{ACAD_REACTORS
330
47
102
}
330
47
100
AcDbScale
 70
     0
300
1'-0" = 1'-0"
140
12.0
141
12.0
290
     0
  0
ENDSEC
  0
EOF
